999
created by FILOU-NC12
0
SECTION
2
HEADER
9
$ACADVER
1
AC1009
9
$INSBASE
10
0.0
20
0.0
30
0.0
9
$EXTMIN
10
0.0
20
0.0
9
$EXTMAX
10
1000.0
20
1000.0
0
ENDSEC
  0
SECTION
  2
TABLES
  0
TABLE
  2
LTYPE
 70
     2
  0
LTYPE
  2
FASTFEED
 70
     0
  3
Fastfeed __ __ __ __ __ __ __ __ __ __ __ __ __
 72
    65
 73
     2
 40
9.525
 49
6.35
 49
-3.175
  0
ENDTAB
  0
TABLE
  2
LAYER
 70
    10
  0
LAYER
  2
Stift_1
 70
     0
 62
 7 
  6
CONTINUOUS
  0
ENDTAB
  0
ENDSEC
  0
SECTION
  2
ENTITIES
  0
LINE
  8
Stift_1
 10
0
 20
49.975
 30
0
 11
0
 21
32
 31
0
 62
 7 
  0
LINE
  8
Stift_1
 10
0
 20
32
 30
0
 11
-132
 21
26
 31
0
 62
 7 
  0
LINE
  8
Stift_1
 10
-132
 20
26
 30
0
 11
-132
 21
55.975
 31
0
 62
 7 
  0
LINE
  8
Stift_1
 10
-132
 20
55.975
 30
0
 11
0
 21
49.975
 31
0
 62
 7 
  0
LINE
  8
Stift_1
 10
-132
 20
24
 30
0
 11
-132
 21
6
 31
0
 62
 7 
  0
LINE
  8
Stift_1
 10
-132
 20
6
 30
0
 11
0
 21
0
 31
0
 62
 7 
  0
LINE
  8
Stift_1
 10
0
 20
0
 30
0
 11
0
 21
30
 31
0
 62
 7 
  0
LINE
  8
Stift_1
 10
0
 20
30
 30
0
 11
-132
 21
24
 31
0
 62
 7 
  0
LINE
  8
Stift_1
 10
0
 20
101.975
 30
0
 11
0
 21
83.975
 31
0
 62
 7 
  0
LINE
  8
Stift_1
 10
0
 20
83.975
 30
0
 11
-132
 21
77.975
 31
0
 62
 7 
  0
LINE
  8
Stift_1
 10
-132
 20
77.975
 30
0
 11
-132
 21
107.975
 31
0
 62
 7 
  0
LINE
  8
Stift_1
 10
-132
 20
107.975
 30
0
 11
0
 21
101.975
 31
0
 62
 7 
  0
LINE
  8
Stift_1
 10
-132
 20
75.975
 30
0
 11
-132
 21
57.975
 31
0
 62
 7 
  0
LINE
  8
Stift_1
 10
-132
 20
57.975
 30
0
 11
0
 21
51.975
 31
0
 62
 7 
  0
LINE
  8
Stift_1
 10
0
 20
51.975
 30
0
 11
0
 21
81.975
 31
0
 62
 7 
  0
LINE
  8
Stift_1
 10
0
 20
81.975
 30
0
 11
-132
 21
75.975
 31
0
 62
 7 
  0
LINE
  8
Stift_1
 10
0
 20
153.975
 30
0
 11
0
 21
135.975
 31
0
 62
 7 
  0
LINE
  8
Stift_1
 10
0
 20
135.975
 30
0
 11
-132
 21
129.975
 31
0
 62
 7 
  0
LINE
  8
Stift_1
 10
-132
 20
129.975
 30
0
 11
-132
 21
159.975
 31
0
 62
 7 
  0
LINE
  8
Stift_1
 10
-132
 20
159.975
 30
0
 11
0
 21
153.975
 31
0
 62
 7 
  0
LINE
  8
Stift_1
 10
-132
 20
127.975
 30
0
 11
-132
 21
109.975
 31
0
 62
 7 
  0
LINE
  8
Stift_1
 10
-132
 20
109.975
 30
0
 11
0
 21
103.975
 31
0
 62
 7 
  0
LINE
  8
Stift_1
 10
0
 20
103.975
 30
0
 11
0
 21
133.975
 31
0
 62
 7 
  0
LINE
  8
Stift_1
 10
0
 20
133.975
 30
0
 11
-132
 21
127.975
 31
0
 62
 7 
  0
ENDSEC
  0
EOF
