ISO-10303-21;
HEADER;
/* Generated by software containing ST-Developer
 * from STEP Tools, Inc. (www.steptools.com) 
 */

FILE_DESCRIPTION(
/* description */ (''),
/* implementation_level */ '2;1');

FILE_NAME(
/* name */ 
'C:/Users/liqui/Documents/Clean/KlipperToolboard/Resources/Regulator.s
tep',
/* time_stamp */ '2020-04-02T12:13:00+02:00',
/* author */ (''),
/* organization */ (''),
/* preprocessor_version */ 'ST-DEVELOPER v18',
/* originating_system */ 'Autodesk Translation Framework v8.12.0.6',
/* authorisation */ '');

FILE_SCHEMA (('AUTOMOTIVE_DESIGN { 1 0 10303 214 3 1 1 }'));
ENDSEC;

DATA;
#10=MECHANICAL_DESIGN_GEOMETRIC_PRESENTATION_REPRESENTATION('',(#13),#487);
#11=SHAPE_REPRESENTATION_RELATIONSHIP('SRR','None',#494,#12);
#12=ADVANCED_BREP_SHAPE_REPRESENTATION('',(#14),#486);
#13=STYLED_ITEM('',(#503),#14);
#14=MANIFOLD_SOLID_BREP('Body1',#291);
#15=FACE_BOUND('',#66,.T.);
#16=FACE_BOUND('',#67,.T.);
#17=FACE_BOUND('',#68,.T.);
#18=FACE_BOUND('',#69,.T.);
#19=FACE_BOUND('',#70,.T.);
#20=FACE_BOUND('',#72,.T.);
#21=FACE_BOUND('',#73,.T.);
#22=FACE_BOUND('',#74,.T.);
#23=CIRCLE('',#311,2.70758630772615);
#24=CIRCLE('',#312,2.70758630772615);
#25=CIRCLE('',#315,0.575);
#26=CIRCLE('',#316,0.575);
#27=CIRCLE('',#318,0.575);
#28=CIRCLE('',#319,0.575);
#29=CIRCLE('',#321,0.575);
#30=CIRCLE('',#322,0.575);
#31=CYLINDRICAL_SURFACE('',#310,2.70758630772615);
#32=CYLINDRICAL_SURFACE('',#314,0.575);
#33=CYLINDRICAL_SURFACE('',#317,0.575);
#34=CYLINDRICAL_SURFACE('',#320,0.575);
#35=FACE_OUTER_BOUND('',#51,.T.);
#36=FACE_OUTER_BOUND('',#52,.T.);
#37=FACE_OUTER_BOUND('',#53,.T.);
#38=FACE_OUTER_BOUND('',#54,.T.);
#39=FACE_OUTER_BOUND('',#55,.T.);
#40=FACE_OUTER_BOUND('',#56,.T.);
#41=FACE_OUTER_BOUND('',#57,.T.);
#42=FACE_OUTER_BOUND('',#58,.T.);
#43=FACE_OUTER_BOUND('',#59,.T.);
#44=FACE_OUTER_BOUND('',#60,.T.);
#45=FACE_OUTER_BOUND('',#61,.T.);
#46=FACE_OUTER_BOUND('',#62,.T.);
#47=FACE_OUTER_BOUND('',#63,.T.);
#48=FACE_OUTER_BOUND('',#64,.T.);
#49=FACE_OUTER_BOUND('',#65,.T.);
#50=FACE_OUTER_BOUND('',#71,.T.);
#51=EDGE_LOOP('',(#191,#192,#193,#194));
#52=EDGE_LOOP('',(#195,#196,#197,#198));
#53=EDGE_LOOP('',(#199,#200,#201,#202));
#54=EDGE_LOOP('',(#203,#204,#205,#206));
#55=EDGE_LOOP('',(#207,#208,#209,#210));
#56=EDGE_LOOP('',(#211,#212,#213,#214));
#57=EDGE_LOOP('',(#215));
#58=EDGE_LOOP('',(#216,#217,#218,#219));
#59=EDGE_LOOP('',(#220,#221,#222,#223));
#60=EDGE_LOOP('',(#224,#225,#226,#227));
#61=EDGE_LOOP('',(#228,#229,#230,#231));
#62=EDGE_LOOP('',(#232,#233,#234,#235));
#63=EDGE_LOOP('',(#236,#237,#238,#239));
#64=EDGE_LOOP('',(#240,#241,#242,#243));
#65=EDGE_LOOP('',(#244,#245,#246,#247));
#66=EDGE_LOOP('',(#248));
#67=EDGE_LOOP('',(#249,#250,#251,#252));
#68=EDGE_LOOP('',(#253));
#69=EDGE_LOOP('',(#254));
#70=EDGE_LOOP('',(#255));
#71=EDGE_LOOP('',(#256,#257,#258,#259));
#72=EDGE_LOOP('',(#260));
#73=EDGE_LOOP('',(#261));
#74=EDGE_LOOP('',(#262));
#75=LINE('',#411,#103);
#76=LINE('',#413,#104);
#77=LINE('',#415,#105);
#78=LINE('',#416,#106);
#79=LINE('',#419,#107);
#80=LINE('',#421,#108);
#81=LINE('',#422,#109);
#82=LINE('',#425,#110);
#83=LINE('',#427,#111);
#84=LINE('',#428,#112);
#85=LINE('',#430,#113);
#86=LINE('',#431,#114);
#87=LINE('',#437,#115);
#88=LINE('',#444,#116);
#89=LINE('',#450,#117);
#90=LINE('',#456,#118);
#91=LINE('',#461,#119);
#92=LINE('',#463,#120);
#93=LINE('',#465,#121);
#94=LINE('',#466,#122);
#95=LINE('',#469,#123);
#96=LINE('',#471,#124);
#97=LINE('',#472,#125);
#98=LINE('',#475,#126);
#99=LINE('',#477,#127);
#100=LINE('',#478,#128);
#101=LINE('',#480,#129);
#102=LINE('',#481,#130);
#103=VECTOR('',#333,10.);
#104=VECTOR('',#334,10.);
#105=VECTOR('',#335,10.);
#106=VECTOR('',#336,10.);
#107=VECTOR('',#339,10.);
#108=VECTOR('',#340,10.);
#109=VECTOR('',#341,10.);
#110=VECTOR('',#344,10.);
#111=VECTOR('',#345,10.);
#112=VECTOR('',#346,10.);
#113=VECTOR('',#349,10.);
#114=VECTOR('',#350,10.);
#115=VECTOR('',#357,2.70758630772615);
#116=VECTOR('',#366,0.575);
#117=VECTOR('',#373,0.575);
#118=VECTOR('',#380,0.575);
#119=VECTOR('',#385,10.);
#120=VECTOR('',#386,10.);
#121=VECTOR('',#387,10.);
#122=VECTOR('',#388,10.);
#123=VECTOR('',#391,10.);
#124=VECTOR('',#392,10.);
#125=VECTOR('',#393,10.);
#126=VECTOR('',#396,10.);
#127=VECTOR('',#397,10.);
#128=VECTOR('',#398,10.);
#129=VECTOR('',#401,10.);
#130=VECTOR('',#402,10.);
#131=VERTEX_POINT('',#409);
#132=VERTEX_POINT('',#410);
#133=VERTEX_POINT('',#412);
#134=VERTEX_POINT('',#414);
#135=VERTEX_POINT('',#418);
#136=VERTEX_POINT('',#420);
#137=VERTEX_POINT('',#424);
#138=VERTEX_POINT('',#426);
#139=VERTEX_POINT('',#434);
#140=VERTEX_POINT('',#436);
#141=VERTEX_POINT('',#441);
#142=VERTEX_POINT('',#443);
#143=VERTEX_POINT('',#447);
#144=VERTEX_POINT('',#449);
#145=VERTEX_POINT('',#453);
#146=VERTEX_POINT('',#455);
#147=VERTEX_POINT('',#459);
#148=VERTEX_POINT('',#460);
#149=VERTEX_POINT('',#462);
#150=VERTEX_POINT('',#464);
#151=VERTEX_POINT('',#468);
#152=VERTEX_POINT('',#470);
#153=VERTEX_POINT('',#474);
#154=VERTEX_POINT('',#476);
#155=EDGE_CURVE('',#131,#132,#75,.T.);
#156=EDGE_CURVE('',#131,#133,#76,.T.);
#157=EDGE_CURVE('',#134,#133,#77,.T.);
#158=EDGE_CURVE('',#132,#134,#78,.T.);
#159=EDGE_CURVE('',#135,#131,#79,.T.);
#160=EDGE_CURVE('',#135,#136,#80,.T.);
#161=EDGE_CURVE('',#133,#136,#81,.T.);
#162=EDGE_CURVE('',#132,#137,#82,.T.);
#163=EDGE_CURVE('',#138,#134,#83,.T.);
#164=EDGE_CURVE('',#137,#138,#84,.T.);
#165=EDGE_CURVE('',#137,#135,#85,.T.);
#166=EDGE_CURVE('',#136,#138,#86,.T.);
#167=EDGE_CURVE('',#139,#139,#23,.T.);
#168=EDGE_CURVE('',#139,#140,#87,.T.);
#169=EDGE_CURVE('',#140,#140,#24,.T.);
#170=EDGE_CURVE('',#141,#141,#25,.T.);
#171=EDGE_CURVE('',#141,#142,#88,.T.);
#172=EDGE_CURVE('',#142,#142,#26,.T.);
#173=EDGE_CURVE('',#143,#143,#27,.T.);
#174=EDGE_CURVE('',#143,#144,#89,.T.);
#175=EDGE_CURVE('',#144,#144,#28,.T.);
#176=EDGE_CURVE('',#145,#145,#29,.T.);
#177=EDGE_CURVE('',#145,#146,#90,.T.);
#178=EDGE_CURVE('',#146,#146,#30,.T.);
#179=EDGE_CURVE('',#147,#148,#91,.T.);
#180=EDGE_CURVE('',#147,#149,#92,.T.);
#181=EDGE_CURVE('',#150,#149,#93,.T.);
#182=EDGE_CURVE('',#148,#150,#94,.T.);
#183=EDGE_CURVE('',#148,#151,#95,.T.);
#184=EDGE_CURVE('',#152,#150,#96,.T.);
#185=EDGE_CURVE('',#151,#152,#97,.T.);
#186=EDGE_CURVE('',#151,#153,#98,.T.);
#187=EDGE_CURVE('',#154,#152,#99,.T.);
#188=EDGE_CURVE('',#153,#154,#100,.T.);
#189=EDGE_CURVE('',#153,#147,#101,.T.);
#190=EDGE_CURVE('',#149,#154,#102,.T.);
#191=ORIENTED_EDGE('',*,*,#155,.F.);
#192=ORIENTED_EDGE('',*,*,#156,.T.);
#193=ORIENTED_EDGE('',*,*,#157,.F.);
#194=ORIENTED_EDGE('',*,*,#158,.F.);
#195=ORIENTED_EDGE('',*,*,#159,.F.);
#196=ORIENTED_EDGE('',*,*,#160,.T.);
#197=ORIENTED_EDGE('',*,*,#161,.F.);
#198=ORIENTED_EDGE('',*,*,#156,.F.);
#199=ORIENTED_EDGE('',*,*,#162,.F.);
#200=ORIENTED_EDGE('',*,*,#158,.T.);
#201=ORIENTED_EDGE('',*,*,#163,.F.);
#202=ORIENTED_EDGE('',*,*,#164,.F.);
#203=ORIENTED_EDGE('',*,*,#165,.F.);
#204=ORIENTED_EDGE('',*,*,#164,.T.);
#205=ORIENTED_EDGE('',*,*,#166,.F.);
#206=ORIENTED_EDGE('',*,*,#160,.F.);
#207=ORIENTED_EDGE('',*,*,#161,.T.);
#208=ORIENTED_EDGE('',*,*,#166,.T.);
#209=ORIENTED_EDGE('',*,*,#163,.T.);
#210=ORIENTED_EDGE('',*,*,#157,.T.);
#211=ORIENTED_EDGE('',*,*,#167,.F.);
#212=ORIENTED_EDGE('',*,*,#168,.T.);
#213=ORIENTED_EDGE('',*,*,#169,.F.);
#214=ORIENTED_EDGE('',*,*,#168,.F.);
#215=ORIENTED_EDGE('',*,*,#167,.T.);
#216=ORIENTED_EDGE('',*,*,#170,.F.);
#217=ORIENTED_EDGE('',*,*,#171,.T.);
#218=ORIENTED_EDGE('',*,*,#172,.T.);
#219=ORIENTED_EDGE('',*,*,#171,.F.);
#220=ORIENTED_EDGE('',*,*,#173,.F.);
#221=ORIENTED_EDGE('',*,*,#174,.T.);
#222=ORIENTED_EDGE('',*,*,#175,.T.);
#223=ORIENTED_EDGE('',*,*,#174,.F.);
#224=ORIENTED_EDGE('',*,*,#176,.F.);
#225=ORIENTED_EDGE('',*,*,#177,.T.);
#226=ORIENTED_EDGE('',*,*,#178,.T.);
#227=ORIENTED_EDGE('',*,*,#177,.F.);
#228=ORIENTED_EDGE('',*,*,#179,.F.);
#229=ORIENTED_EDGE('',*,*,#180,.T.);
#230=ORIENTED_EDGE('',*,*,#181,.F.);
#231=ORIENTED_EDGE('',*,*,#182,.F.);
#232=ORIENTED_EDGE('',*,*,#183,.F.);
#233=ORIENTED_EDGE('',*,*,#182,.T.);
#234=ORIENTED_EDGE('',*,*,#184,.F.);
#235=ORIENTED_EDGE('',*,*,#185,.F.);
#236=ORIENTED_EDGE('',*,*,#186,.F.);
#237=ORIENTED_EDGE('',*,*,#185,.T.);
#238=ORIENTED_EDGE('',*,*,#187,.F.);
#239=ORIENTED_EDGE('',*,*,#188,.F.);
#240=ORIENTED_EDGE('',*,*,#189,.F.);
#241=ORIENTED_EDGE('',*,*,#188,.T.);
#242=ORIENTED_EDGE('',*,*,#190,.F.);
#243=ORIENTED_EDGE('',*,*,#180,.F.);
#244=ORIENTED_EDGE('',*,*,#190,.T.);
#245=ORIENTED_EDGE('',*,*,#187,.T.);
#246=ORIENTED_EDGE('',*,*,#184,.T.);
#247=ORIENTED_EDGE('',*,*,#181,.T.);
#248=ORIENTED_EDGE('',*,*,#169,.T.);
#249=ORIENTED_EDGE('',*,*,#159,.T.);
#250=ORIENTED_EDGE('',*,*,#155,.T.);
#251=ORIENTED_EDGE('',*,*,#162,.T.);
#252=ORIENTED_EDGE('',*,*,#165,.T.);
#253=ORIENTED_EDGE('',*,*,#176,.T.);
#254=ORIENTED_EDGE('',*,*,#173,.T.);
#255=ORIENTED_EDGE('',*,*,#170,.T.);
#256=ORIENTED_EDGE('',*,*,#189,.T.);
#257=ORIENTED_EDGE('',*,*,#179,.T.);
#258=ORIENTED_EDGE('',*,*,#183,.T.);
#259=ORIENTED_EDGE('',*,*,#186,.T.);
#260=ORIENTED_EDGE('',*,*,#178,.F.);
#261=ORIENTED_EDGE('',*,*,#175,.F.);
#262=ORIENTED_EDGE('',*,*,#172,.F.);
#263=PLANE('',#305);
#264=PLANE('',#306);
#265=PLANE('',#307);
#266=PLANE('',#308);
#267=PLANE('',#309);
#268=PLANE('',#313);
#269=PLANE('',#323);
#270=PLANE('',#324);
#271=PLANE('',#325);
#272=PLANE('',#326);
#273=PLANE('',#327);
#274=PLANE('',#328);
#275=ADVANCED_FACE('',(#35),#263,.T.);
#276=ADVANCED_FACE('',(#36),#264,.T.);
#277=ADVANCED_FACE('',(#37),#265,.T.);
#278=ADVANCED_FACE('',(#38),#266,.T.);
#279=ADVANCED_FACE('',(#39),#267,.T.);
#280=ADVANCED_FACE('',(#40),#31,.T.);
#281=ADVANCED_FACE('',(#41),#268,.T.);
#282=ADVANCED_FACE('',(#42),#32,.F.);
#283=ADVANCED_FACE('',(#43),#33,.F.);
#284=ADVANCED_FACE('',(#44),#34,.F.);
#285=ADVANCED_FACE('',(#45),#269,.T.);
#286=ADVANCED_FACE('',(#46),#270,.T.);
#287=ADVANCED_FACE('',(#47),#271,.T.);
#288=ADVANCED_FACE('',(#48),#272,.T.);
#289=ADVANCED_FACE('',(#49,#15,#16,#17,#18,#19),#273,.T.);
#290=ADVANCED_FACE('',(#50,#20,#21,#22),#274,.F.);
#291=CLOSED_SHELL('',(#275,#276,#277,#278,#279,#280,#281,#282,#283,#284,
#285,#286,#287,#288,#289,#290));
#292=DERIVED_UNIT_ELEMENT(#294,1.);
#293=DERIVED_UNIT_ELEMENT(#489,3.);
#294=(
MASS_UNIT()
NAMED_UNIT(*)
SI_UNIT(.KILO.,.GRAM.)
);
#295=DERIVED_UNIT((#292,#293));
#296=MEASURE_REPRESENTATION_ITEM('density measure',
POSITIVE_RATIO_MEASURE(7850.),#295);
#297=PROPERTY_DEFINITION_REPRESENTATION(#302,#299);
#298=PROPERTY_DEFINITION_REPRESENTATION(#303,#300);
#299=REPRESENTATION('material name',(#301),#486);
#300=REPRESENTATION('density',(#296),#486);
#301=DESCRIPTIVE_REPRESENTATION_ITEM('Steel','Steel');
#302=PROPERTY_DEFINITION('material property','material name',#496);
#303=PROPERTY_DEFINITION('material property','density of part',#496);
#304=AXIS2_PLACEMENT_3D('placement',#407,#329,#330);
#305=AXIS2_PLACEMENT_3D('',#408,#331,#332);
#306=AXIS2_PLACEMENT_3D('',#417,#337,#338);
#307=AXIS2_PLACEMENT_3D('',#423,#342,#343);
#308=AXIS2_PLACEMENT_3D('',#429,#347,#348);
#309=AXIS2_PLACEMENT_3D('',#432,#351,#352);
#310=AXIS2_PLACEMENT_3D('',#433,#353,#354);
#311=AXIS2_PLACEMENT_3D('',#435,#355,#356);
#312=AXIS2_PLACEMENT_3D('',#438,#358,#359);
#313=AXIS2_PLACEMENT_3D('',#439,#360,#361);
#314=AXIS2_PLACEMENT_3D('',#440,#362,#363);
#315=AXIS2_PLACEMENT_3D('',#442,#364,#365);
#316=AXIS2_PLACEMENT_3D('',#445,#367,#368);
#317=AXIS2_PLACEMENT_3D('',#446,#369,#370);
#318=AXIS2_PLACEMENT_3D('',#448,#371,#372);
#319=AXIS2_PLACEMENT_3D('',#451,#374,#375);
#320=AXIS2_PLACEMENT_3D('',#452,#376,#377);
#321=AXIS2_PLACEMENT_3D('',#454,#378,#379);
#322=AXIS2_PLACEMENT_3D('',#457,#381,#382);
#323=AXIS2_PLACEMENT_3D('',#458,#383,#384);
#324=AXIS2_PLACEMENT_3D('',#467,#389,#390);
#325=AXIS2_PLACEMENT_3D('',#473,#394,#395);
#326=AXIS2_PLACEMENT_3D('',#479,#399,#400);
#327=AXIS2_PLACEMENT_3D('',#482,#403,#404);
#328=AXIS2_PLACEMENT_3D('',#483,#405,#406);
#329=DIRECTION('axis',(0.,0.,1.));
#330=DIRECTION('refdir',(1.,0.,0.));
#331=DIRECTION('center_axis',(-1.,0.,0.));
#332=DIRECTION('ref_axis',(0.,0.,1.));
#333=DIRECTION('',(0.,0.,-1.));
#334=DIRECTION('',(0.,1.,0.));
#335=DIRECTION('',(0.,0.,1.));
#336=DIRECTION('',(0.,1.,0.));
#337=DIRECTION('center_axis',(0.,0.,1.));
#338=DIRECTION('ref_axis',(1.,0.,0.));
#339=DIRECTION('',(-1.,0.,0.));
#340=DIRECTION('',(0.,1.,0.));
#341=DIRECTION('',(1.,0.,0.));
#342=DIRECTION('center_axis',(0.,0.,-1.));
#343=DIRECTION('ref_axis',(-1.,0.,0.));
#344=DIRECTION('',(1.,0.,0.));
#345=DIRECTION('',(-1.,0.,0.));
#346=DIRECTION('',(0.,1.,0.));
#347=DIRECTION('center_axis',(1.,0.,0.));
#348=DIRECTION('ref_axis',(0.,0.,-1.));
#349=DIRECTION('',(0.,0.,1.));
#350=DIRECTION('',(0.,0.,-1.));
#351=DIRECTION('center_axis',(0.,1.,0.));
#352=DIRECTION('ref_axis',(0.,0.,1.));
#353=DIRECTION('center_axis',(0.,1.,0.));
#354=DIRECTION('ref_axis',(1.,0.,0.));
#355=DIRECTION('center_axis',(0.,1.,0.));
#356=DIRECTION('ref_axis',(1.,0.,0.));
#357=DIRECTION('',(0.,-1.,0.));
#358=DIRECTION('center_axis',(0.,-1.,0.));
#359=DIRECTION('ref_axis',(1.,0.,0.));
#360=DIRECTION('center_axis',(0.,1.,0.));
#361=DIRECTION('ref_axis',(1.,0.,0.));
#362=DIRECTION('center_axis',(0.,1.,0.));
#363=DIRECTION('ref_axis',(1.,0.,0.));
#364=DIRECTION('center_axis',(0.,-1.,0.));
#365=DIRECTION('ref_axis',(1.,0.,0.));
#366=DIRECTION('',(0.,-1.,0.));
#367=DIRECTION('center_axis',(0.,-1.,0.));
#368=DIRECTION('ref_axis',(1.,0.,0.));
#369=DIRECTION('center_axis',(0.,1.,0.));
#370=DIRECTION('ref_axis',(1.,0.,0.));
#371=DIRECTION('center_axis',(0.,-1.,0.));
#372=DIRECTION('ref_axis',(1.,0.,0.));
#373=DIRECTION('',(0.,-1.,0.));
#374=DIRECTION('center_axis',(0.,-1.,0.));
#375=DIRECTION('ref_axis',(1.,0.,0.));
#376=DIRECTION('center_axis',(0.,1.,0.));
#377=DIRECTION('ref_axis',(1.,0.,0.));
#378=DIRECTION('center_axis',(0.,-1.,0.));
#379=DIRECTION('ref_axis',(1.,0.,0.));
#380=DIRECTION('',(0.,-1.,0.));
#381=DIRECTION('center_axis',(0.,-1.,0.));
#382=DIRECTION('ref_axis',(1.,0.,0.));
#383=DIRECTION('center_axis',(-1.,0.,0.));
#384=DIRECTION('ref_axis',(0.,0.,1.));
#385=DIRECTION('',(0.,0.,-1.));
#386=DIRECTION('',(0.,1.,0.));
#387=DIRECTION('',(0.,0.,1.));
#388=DIRECTION('',(0.,1.,0.));
#389=DIRECTION('center_axis',(0.,0.,-1.));
#390=DIRECTION('ref_axis',(-1.,0.,0.));
#391=DIRECTION('',(1.,0.,0.));
#392=DIRECTION('',(-1.,0.,0.));
#393=DIRECTION('',(0.,1.,0.));
#394=DIRECTION('center_axis',(1.,0.,-3.17206578464331E-17));
#395=DIRECTION('ref_axis',(-3.17206578464331E-17,0.,-1.));
#396=DIRECTION('',(3.17206578464331E-17,0.,1.));
#397=DIRECTION('',(-3.17206578464331E-17,0.,-1.));
#398=DIRECTION('',(0.,1.,0.));
#399=DIRECTION('center_axis',(4.53152254949043E-16,0.,1.));
#400=DIRECTION('ref_axis',(1.,0.,-4.53152254949043E-16));
#401=DIRECTION('',(-1.,0.,4.53152254949043E-16));
#402=DIRECTION('',(1.,0.,-4.53152254949043E-16));
#403=DIRECTION('center_axis',(0.,1.,0.));
#404=DIRECTION('ref_axis',(1.,0.,0.));
#405=DIRECTION('center_axis',(0.,1.,0.));
#406=DIRECTION('ref_axis',(1.,0.,0.));
#407=CARTESIAN_POINT('',(0.,0.,0.));
#408=CARTESIAN_POINT('Origin',(2.36643666052699,0.,2.81362726184356));
#409=CARTESIAN_POINT('',(2.36643666052699,1.6,6.92124131103015));
#410=CARTESIAN_POINT('',(2.36643666052699,1.6,2.81362726184356));
#411=CARTESIAN_POINT('',(2.36643666052699,1.6,6.92124131103015));
#412=CARTESIAN_POINT('',(2.36643666052699,5.,6.92124131103015));
#413=CARTESIAN_POINT('',(2.36643666052699,0.,6.92124131103015));
#414=CARTESIAN_POINT('',(2.36643666052699,5.,2.81362726184356));
#415=CARTESIAN_POINT('',(2.36643666052699,5.,6.92124131103015));
#416=CARTESIAN_POINT('',(2.36643666052699,0.,2.81362726184356));
#417=CARTESIAN_POINT('Origin',(2.36643666052699,0.,6.92124131103015));
#418=CARTESIAN_POINT('',(4.79366314413725,1.6,6.92124131103015));
#419=CARTESIAN_POINT('',(4.79366314413725,1.6,6.92124131103015));
#420=CARTESIAN_POINT('',(4.79366314413725,5.,6.92124131103015));
#421=CARTESIAN_POINT('',(4.79366314413725,0.,6.92124131103015));
#422=CARTESIAN_POINT('',(4.79366314413725,5.,6.92124131103015));
#423=CARTESIAN_POINT('Origin',(4.79366314413725,0.,2.81362726184356));
#424=CARTESIAN_POINT('',(4.79366314413725,1.6,2.81362726184356));
#425=CARTESIAN_POINT('',(2.36643666052699,1.6,2.81362726184356));
#426=CARTESIAN_POINT('',(4.79366314413725,5.,2.81362726184356));
#427=CARTESIAN_POINT('',(2.36643666052699,5.,2.81362726184356));
#428=CARTESIAN_POINT('',(4.79366314413725,0.,2.81362726184356));
#429=CARTESIAN_POINT('Origin',(4.79366314413725,0.,6.92124131103015));
#430=CARTESIAN_POINT('',(4.79366314413725,1.6,2.81362726184356));
#431=CARTESIAN_POINT('',(4.79366314413725,5.,2.81362726184356));
#432=CARTESIAN_POINT('Origin',(3.58004990233212,5.,4.86743428643686));
#433=CARTESIAN_POINT('Origin',(-0.936889323084611,0.,5.39883890119177));
#434=CARTESIAN_POINT('',(-3.64447563081076,5.,5.39883890119177));
#435=CARTESIAN_POINT('Origin',(-0.936889323084611,5.,5.39883890119177));
#436=CARTESIAN_POINT('',(-3.64447563081076,1.6,5.39883890119177));
#437=CARTESIAN_POINT('',(-3.64447563081076,0.,5.39883890119177));
#438=CARTESIAN_POINT('Origin',(-0.936889323084611,1.6,5.39883890119177));
#439=CARTESIAN_POINT('Origin',(-0.936889323084611,5.,5.39883890119177));
#440=CARTESIAN_POINT('Origin',(-2.54,0.,-7.4));
#441=CARTESIAN_POINT('',(-3.115,1.6,-7.4));
#442=CARTESIAN_POINT('Origin',(-2.54,1.6,-7.4));
#443=CARTESIAN_POINT('',(-3.115,0.,-7.4));
#444=CARTESIAN_POINT('',(-3.115,0.,-7.4));
#445=CARTESIAN_POINT('Origin',(-2.54,0.,-7.4));
#446=CARTESIAN_POINT('Origin',(0.,0.,-7.4));
#447=CARTESIAN_POINT('',(-0.575,1.6,-7.4));
#448=CARTESIAN_POINT('Origin',(0.,1.6,-7.4));
#449=CARTESIAN_POINT('',(-0.575,0.,-7.4));
#450=CARTESIAN_POINT('',(-0.575,0.,-7.4));
#451=CARTESIAN_POINT('Origin',(0.,0.,-7.4));
#452=CARTESIAN_POINT('Origin',(2.54,0.,-7.4));
#453=CARTESIAN_POINT('',(1.965,1.6,-7.4));
#454=CARTESIAN_POINT('Origin',(2.54,1.6,-7.4));
#455=CARTESIAN_POINT('',(1.965,0.,-7.4));
#456=CARTESIAN_POINT('',(1.965,0.,-7.4));
#457=CARTESIAN_POINT('Origin',(2.54,0.,-7.4));
#458=CARTESIAN_POINT('Origin',(-4.9,0.,-8.75));
#459=CARTESIAN_POINT('',(-4.9,0.,8.75));
#460=CARTESIAN_POINT('',(-4.9,0.,-8.75));
#461=CARTESIAN_POINT('',(-4.9,0.,8.75));
#462=CARTESIAN_POINT('',(-4.9,1.6,8.75));
#463=CARTESIAN_POINT('',(-4.9,0.,8.75));
#464=CARTESIAN_POINT('',(-4.9,1.6,-8.75));
#465=CARTESIAN_POINT('',(-4.9,1.6,8.75));
#466=CARTESIAN_POINT('',(-4.9,0.,-8.75));
#467=CARTESIAN_POINT('Origin',(4.9,0.,-8.75));
#468=CARTESIAN_POINT('',(4.9,0.,-8.75));
#469=CARTESIAN_POINT('',(-4.9,0.,-8.75));
#470=CARTESIAN_POINT('',(4.9,1.6,-8.75));
#471=CARTESIAN_POINT('',(-4.9,1.6,-8.75));
#472=CARTESIAN_POINT('',(4.9,0.,-8.75));
#473=CARTESIAN_POINT('Origin',(4.9,0.,8.75));
#474=CARTESIAN_POINT('',(4.9,0.,8.75));
#475=CARTESIAN_POINT('',(4.9,0.,-8.75));
#476=CARTESIAN_POINT('',(4.9,1.6,8.75));
#477=CARTESIAN_POINT('',(4.9,1.6,-8.75));
#478=CARTESIAN_POINT('',(4.9,0.,8.75));
#479=CARTESIAN_POINT('Origin',(-4.9,0.,8.75));
#480=CARTESIAN_POINT('',(4.9,0.,8.75));
#481=CARTESIAN_POINT('',(4.9,1.6,8.75));
#482=CARTESIAN_POINT('Origin',(-1.11022302462516E-15,1.6,0.));
#483=CARTESIAN_POINT('Origin',(-1.11022302462516E-15,0.,0.));
#484=UNCERTAINTY_MEASURE_WITH_UNIT(LENGTH_MEASURE(0.01),#488,
'DISTANCE_ACCURACY_VALUE',
'Maximum model space distance between geometric entities at asserted c
onnectivities');
#485=UNCERTAINTY_MEASURE_WITH_UNIT(LENGTH_MEASURE(0.01),#488,
'DISTANCE_ACCURACY_VALUE',
'Maximum model space distance between geometric entities at asserted c
onnectivities');
#486=(
GEOMETRIC_REPRESENTATION_CONTEXT(3)
GLOBAL_UNCERTAINTY_ASSIGNED_CONTEXT((#484))
GLOBAL_UNIT_ASSIGNED_CONTEXT((#488,#490,#491))
REPRESENTATION_CONTEXT('','3D')
);
#487=(
GEOMETRIC_REPRESENTATION_CONTEXT(3)
GLOBAL_UNCERTAINTY_ASSIGNED_CONTEXT((#485))
GLOBAL_UNIT_ASSIGNED_CONTEXT((#488,#490,#491))
REPRESENTATION_CONTEXT('','3D')
);
#488=(
LENGTH_UNIT()
NAMED_UNIT(*)
SI_UNIT(.MILLI.,.METRE.)
);
#489=(
LENGTH_UNIT()
NAMED_UNIT(*)
SI_UNIT($,.METRE.)
);
#490=(
NAMED_UNIT(*)
PLANE_ANGLE_UNIT()
SI_UNIT($,.RADIAN.)
);
#491=(
NAMED_UNIT(*)
SI_UNIT($,.STERADIAN.)
SOLID_ANGLE_UNIT()
);
#492=SHAPE_DEFINITION_REPRESENTATION(#493,#494);
#493=PRODUCT_DEFINITION_SHAPE('',$,#496);
#494=SHAPE_REPRESENTATION('',(#304),#486);
#495=PRODUCT_DEFINITION_CONTEXT('part definition',#500,'design');
#496=PRODUCT_DEFINITION('(Unsaved)','(Unsaved)',#497,#495);
#497=PRODUCT_DEFINITION_FORMATION('',$,#502);
#498=PRODUCT_RELATED_PRODUCT_CATEGORY('(Unsaved)','(Unsaved)',(#502));
#499=APPLICATION_PROTOCOL_DEFINITION('international standard',
'automotive_design',2009,#500);
#500=APPLICATION_CONTEXT(
'Core Data for Automotive Mechanical Design Process');
#501=PRODUCT_CONTEXT('part definition',#500,'mechanical');
#502=PRODUCT('(Unsaved)','(Unsaved)',$,(#501));
#503=PRESENTATION_STYLE_ASSIGNMENT((#504));
#504=SURFACE_STYLE_USAGE(.BOTH.,#505);
#505=SURFACE_SIDE_STYLE('',(#506));
#506=SURFACE_STYLE_FILL_AREA(#507);
#507=FILL_AREA_STYLE('Steel - Satin',(#508));
#508=FILL_AREA_STYLE_COLOUR('Steel - Satin',#509);
#509=COLOUR_RGB('Steel - Satin',0.627450980392157,0.627450980392157,0.627450980392157);
ENDSEC;
END-ISO-10303-21;
